Lektion 5.3 – 12 takters blues i A

Du har nu (forhåbentlig) lært at læse tabulatur. Derudover har du lært at spille en A mol pentaton skala, denne skala kan bruges til at spille solo over en blues i A. Det er derfor oplagt at du skal lære at spille en simpel 12 takters blues i A, ved hjælp af tabulatur og en video. 

Lær at spille blues på guitar - begynder lektion

12 takters blues er en hel basis udgave af blues som består af 12 takter, deraf navnet ;)

Du skal bruge 3 akkorder til at spille  denne 12 takters blues, akkorderne er A5, D5 og E5. Hvordan du spiller akkorderne kommer vi til, men først kigger vi lige på i hvilken rækkefølge du skal spille akkorderne.

||A5 |A5|A5|A5|D5|D5|A5|A5|E5|E5|A5|E5||

Ovenstående betyder at du i de første 4 takter kun skal spille A5 akkorden, herefter 2 takter med D5, så 2 takter med A5, efterfulgt af 2 takter med E5 og så slutter man af med en takt af A5 og E5.

Nu til hvordan man spiller akkorderne. For det vi gør i den her 12 takters blues, er nemlig at vi spiller noget lidt mere avanceret, end bare at spille en masse nedslag på samme 3 akkorder. Nedenfor kan du se præcis hvad du skal spille i hver takt:

A5:

E----------------------------------------------------------------
B----------------------------------------------------------------
G----------------------------------------------------------------
D----2--2--4--4--2--2--4--4--------------------------------
A----0--0--0--0--0--0--0--0--------------------------------
E----------------------------------------------------------------

I hver takt med A5 skal du spille ovenstående tabulatur. Noden på 2. båndet spilles med din pegefinger og noden på 4. båndet spilles med din ringfinger.

Ved D5 er det samme mønster du følger, men nu er det bare på G strengen vi trykker ned med fingrene og D strengen som spilles åben.

E----------------------------------------------------------------
B----------------------------------------------------------------
G----2--2--4--4--2--2--4--4--------------------------------
D----0--0--0--0--0--0--0--0---------------------------------
A----------------------------------------------------------------
E----------------------------------------------------------------

Ovenstående tabulatur spiller du i hver af de takter der er med D5

Ved E5 er det igen samme mønster, men nu er det så den tykke E-streng som spilles åben og A strengen vi trykker ned på.

E----------------------------------------------------------------
B----------------------------------------------------------------
G----------------------------------------------------------------
D----------------------------------------------------------------
A----2--2--4--4--2--2--4--4---------------------------------
E----0--0--0--0--0--0--0--0---------------------------------

Ovenstående tabs spiller du igennem hver gang der er en takt med E5.

OBS! Læg mærke til at akkorderne har navn efter hvilken streng/node som man rammer først. E5 er hvor man rammer den åbne E streng først. Ved A5 rammer man den åbne A-streng først og ved D5 rammer man den åbne D-streng først.

I videoen her, tager Justin Sandercoe fra Justinguitar.com dig i hånden gennem hele denne 12 takters blues. Se videoen og følg instruktionerne, under videoen kan du desuden finde hele tabulaturen for denne 12 takters blues i A. God fornøjelse. 

Tabulatur til 12 takters blues i A på Guitar

Prøv at:

- Spille 12 takters blues’en igennem igen og igen uden stop og memorer den.
- Sørge for at du ikke rammer de åbne strenge som du ikke skal spille. Hold dig til kun at spille den ene åbne streng og så den streng du trykker ned på.