Lektion 5.2 - Lær at spille A-mol Pentaton skalaen

I lektion 5.1 opdagede vi at du er godt i gang med, at lære at spille A-mol pentatonskalaen på din guitar. Det er en skala som er rigtig god at bruge til at spille soloer henover blues i A. Så lad os se nærmere på skalaen, så du kan lære at spille den. Herefter går vi i gang med at lære at spille en 12 takters blues i A.

Vi var noget her til:

E----------------------------------------------------------------
B----------------------------------------------------------------
G----------------------------------------------------------------
D-------------------------5---7---------------------------------
A--------------5---7--------------------------------------------
E----5---8------------------------------------------------------

Resten ser sådan her ud:

E-------------------------------5---8-------------------------
B--------------------5---8------------------------------------
G-------5---7------------------------------------------------
D-------------------------------------------------------------
A-------------------------------------------------------------
E-------------------------------------------------------------

Og så tilbage igen:

E-----8---5-----------------------------------------------------
B--------------8---5--------------------------------------------
G-----------------------7---5-----------------------------------
D--------------------------------7---5--------------------------
A-----------------------------------------7---5-----------------
E---------------------------------------------------8---5-------

Sådan her ser hele tabulaturen ud for A-mol pentaton skalaen:

E------------------------------------------------------5---8---5--------------------------------------------------
B---------------------------------------------5---8----------------8---5-----------------------------------------
G-----------------------------------5---7-----------------------------------7---5--------------------------------
D-------------------------5---7------------------------------------------------------7---5-----------------------
A--------------5---7--------------------------------------------------------------------------7---5--------------
E----5---8----------------------------------------------------------------------------------------------8---5----

Se med i videoen her for at lære at spille A-mol pentaton skalaen. Det er Justin Sandercoe fra Justinguitar som underviser i videoen. 

Når du spiller skalaen igennem så brug pegefingeren på 5 bånd, ringfingeren på 7 bånd og lillefingeren på 8. bånd. HUSK at du ikke behøver at fjerne pegefingeren fra 5. bånd når du spiller næste node på enten 7. eller 8. bånd. Når du er på samme streng er det kun det højeste bånd man kan høre. Dvs. hvis du fx har en finger på a-strengen på 5. bånd og en finger på a-strengens 7. bånd er det kun noden fra 7. båndet som du vil kunne høre. Det gør det nemmere at spille skalaen og flytte fingrene hvis du først holder nede med pegefingeren, spiller noden, så trykker du ned med din ring eller lillefinger og først herefter flytter du din pegefinger til næste streng.

Start med at spille hver note langsomt og tydeligt bare med nedslag, først hele vejen ned og så tilbage igen. Når du bliver god til det, så kan du skifte mellem ned og opslag. Vær opmærksom at nedslagene altid bliver når du spiller en note på 5. bånd og opslag er på de andre bånd.